WE'LL BE RIGHT BACK

Date: 09/10/02
From: Jaan Wessman

"WE'LL BE RIGHT BACK" instrumental section

If any of you have the video from Heiligenhaus, there exists backstage
footage of yours truly in the midst of transcribing this short but
unusually-difficult-to-grasp part. In between (aghast) and (resolute), if
you follow the CD booklet. Plenty of ways to finger this stuff, this one
worked for me on the 5-string. There still might be incorrect pitches here
but I think it's, at least, pretty close...


|--15---------------------|
|--15----9----------------|
|-------------------------|
|-------------------------|
|--------------9----8-----|


|--------------------------------------------------------|
|-------------------------------9--11--7-----------------|
|--13--11---------12--10---------------------------------|
|-------------11-----------------------------------------|
|--------------------------------------------8----9------|


|------------13--14----------------------|
|-------12-------------------------------|
|--11------------------------------------|
|---------------------------------1------|
|----------------------------------------|

*******************************

Nothing to get your groove going, I know... Nevertheless, hope you enjoy
these!

Your daily tab brought to you by,
Jaan

 

 

Back to Tab-index
Mike Keneally, Spen Music BMI
(otherwise as noted)