THE MYSTERY MUSIC



from: Alan Tignanelli
date: Sun, 28 Dec 2003 22:29

Hi Claude,

All these years later, I'm finally remembering to send this to you. I'm
almost positive I posted it to the group way back when, but a) I don't
remember; and 2) I'm too lazy to Google for it. But here it is anyway.

As I recall, it's pretty accurate, although that incredibly fast part
was a pain in the nuts to transcribe. Fortunately, my RP2000 slowed it
down enough for my bad ears to figure it out.

Enjoy!

Alan
----------------------------------------------------------
Standard Tuning

Main Chord Riff

Ab
4-------4-----4----------------|
5-------5-----5----------------|
6-------6-----6----------------|
7-------7-----7----------------|
-------------------------------|
-------------------------------|

Gb
2-------2-----2----------------|
3-------3-----3----------------|
4-------4-----4----------------|
5-------5-----5----------------|
-------------------------------|
-------------------------------|

Main Melody Riff

NOTE: I learned this one way, and on the Kent video, Mike 
plays it another. Unfortunately, I didnít zoom in on MKís
hands on the video, so I canít be exactly certain of what
heís playing, so I did my best guess. That said, it seems
easier to me to play it the way I learned it, but I guess
thatís because I learned it that way. So, for your viewing
pleasure, Iím giving you both versions. And for your mental
exercise, you can transpose this up an octave to play the
second part like the CD.

Main Melody Riff The Way I Learned It

Ab
--------------------------------|
-4---1--------1-----------------|
----------3--------3-----2------|
--------------------------------|
--------------------------------|
--------------------------------|

Ab
---------------1---1------------|
---2---1---2--------------------|
----------------------------3---|
--------------------------------|
--------------------------------|
--------------------------------|

Ab
---------1--2--4---2--1----------1------|
4--3--4------------------4--3ó4-----3--4|
----------------------------------------|
----------------------------------------|
----------------------------------------|
----------------------------------------|

Gb
--------------------------------|
2-------------------------------|
-------------------5------------|
-----4--------------------------|
--------------------------------|
--------------------------------|

Main Melody Riff The Way I Think MK Might Play It

Ab
--------------------------------|
-4------------------------------|
-----5----3---5----3------------|
-------------------------4------|
--------------------------------|
--------------------------------|

Ab
--------------------------------|
---------------6---6------------|
---6---5---6------------------3-|
--------------------------------|
--------------------------------|
--------------------------------|

Ab
---------1--2--4---2--1----------1------|
4--3--4------------------4--3ó4-----3--4|
----------------------------------------|
----------------------------------------|
----------------------------------------|
----------------------------------------|

Gb
--------------------------------|
2-------------------------------|
-------------------5------------|
-----4--------------------------|
--------------------------------|
--------------------------------|

The Incredibly Fast Part Between The Two Melody Bits

(just before the melody is repeated an octave higher on the studio version)

20--19--18--16------16----------------------16------|
----------------18------15------16--18--19------16--|
----------------------------------------------------|
----------------------------15----------------------|
----------------------------------------------------|
----------------------------------------------------|

Back to Tab-index
©Mike Keneally, Spen Music BMI
(otherwise as noted)